ISO-10303-21;
HEADER;
FILE_DESCRIPTION (( 'STEP AP214' ),
    '1' );
FILE_NAME ('P-108-Placeholder 48V 60Ah.STEP',
    '2021-09-24T11:44:09',
    ( '' ),
    ( '' ),
    'SwSTEP 2.0',
    'SolidWorks 2021',
    '' );
FILE_SCHEMA (( 'AUTOMOTIVE_DESIGN' ));
ENDSEC;

DATA;
#1 = ADVANCED_FACE ( 'NONE', ( #30 ), #144, .F. ) ;
#2 = APPLICATION_PROTOCOL_DEFINITION ( 'draft international standard', 'automotive_design', 1998, #53 ) ;
#3 = ORIENTED_EDGE ( 'NONE', *, *, #146, .T. ) ;
#4 = COLOUR_RGB ( '',0.1019607843137254888, 0.1019607843137254888, 0.1019607843137254888 ) ;
#5 = MECHANICAL_DESIGN_GEOMETRIC_PRESENTATION_REPRESENTATION (  '', ( #123 ), #185 ) ;
#6 = VERTEX_POINT ( 'NONE', #121 ) ;
#7 = ORIENTED_EDGE ( 'NONE', *, *, #177, .T. ) ;
#8 = ORIENTED_EDGE ( 'NONE', *, *, #200, .T. ) ;
#9 = EDGE_LOOP ( 'NONE', ( #189, #85, #161, #68 ) ) ;
#10 =( NAMED_UNIT ( * ) PLANE_ANGLE_UNIT ( ) SI_UNIT ( $, .RADIAN. ) );
#11 = EDGE_CURVE ( 'NONE', #66, #175, #145, .T. ) ;
#12 = ADVANCED_FACE ( 'NONE', ( #91 ), #183, .F. ) ;
#13 = DIRECTION ( 'NONE',  ( -1.000000000000000000, 0.000000000000000000, 0.000000000000000000 ) ) ;
#14 = AXIS2_PLACEMENT_3D ( 'NONE', #132, #106, #87 ) ;
#15 =( GEOMETRIC_REPRESENTATION_CONTEXT ( 3 ) GLOBAL_UNCERTAINTY_ASSIGNED_CONTEXT ( ( #77 ) ) GLOBAL_UNIT_ASSIGNED_CONTEXT ( ( #127, #35, #169 ) ) REPRESENTATION_CONTEXT ( 'NONE', 'WORKASPACE' ) );
#16 = FILL_AREA_STYLE ('',( #165 ) ) ;
#17 = CARTESIAN_POINT ( 'NONE',  ( 165.0000000000000000, 260.0000000000000000, -170.0000000000000284 ) ) ;
#18 = DIRECTION ( 'NONE',  ( -0.000000000000000000, -1.000000000000000000, -0.000000000000000000 ) ) ;
#19 = PRESENTATION_LAYER_ASSIGNMENT (  '', '', ( #123 ) ) ;
#20 = DIRECTION ( 'NONE',  ( -0.000000000000000000, -0.000000000000000000, 1.000000000000000000 ) ) ;
#21 = CARTESIAN_POINT ( 'NONE',  ( 165.0000000000000000, 260.0000000000000000, 169.9999999999999432 ) ) ;
#22 = CARTESIAN_POINT ( 'NONE',  ( 165.0000000000000000, 260.0000000000000000, -170.0000000000000284 ) ) ;
#23 = PRESENTATION_LAYER_ASSIGNMENT (  '', '', ( #179 ) ) ;
#24 = MANIFOLD_SOLID_BREP ( 'Boss-Extrude1', #107 ) ;
#25 = DIRECTION ( 'NONE',  ( -1.000000000000000000, 0.000000000000000000, 1.682156097916903588E-16 ) ) ;
#26 = PRODUCT_DEFINITION_SHAPE ( 'NONE', 'NONE',  #63 ) ;
#27 = ORIENTED_EDGE ( 'NONE', *, *, #167, .F. ) ;
#28 = EDGE_LOOP ( 'NONE', ( #29, #49, #118, #47 ) ) ;
#29 = ORIENTED_EDGE ( 'NONE', *, *, #157, .F. ) ;
#30 = FACE_OUTER_BOUND ( 'NONE', #28, .T. ) ;
#31 = DIRECTION ( 'NONE',  ( 1.000000000000000000, 0.000000000000000000, 0.000000000000000000 ) ) ;
#32 = FILL_AREA_STYLE ('',( #193 ) ) ;
#33 = CARTESIAN_POINT ( 'NONE',  ( -165.0000000000000000, 0.000000000000000000, 169.9999999999999716 ) ) ;
#34 =( LENGTH_UNIT ( ) NAMED_UNIT ( * ) SI_UNIT ( .MILLI., .METRE. ) );
#35 =( NAMED_UNIT ( * ) PLANE_ANGLE_UNIT ( ) SI_UNIT ( $, .RADIAN. ) );
#36 = DIRECTION ( 'NONE',  ( 0.000000000000000000, -0.000000000000000000, 1.000000000000000000 ) ) ;
#37 = CARTESIAN_POINT ( 'NONE',  ( 165.0000000000000000, 0.000000000000000000, 169.9999999999999432 ) ) ;
#38 = PRODUCT_RELATED_PRODUCT_CATEGORY ( 'part', '', ( #105 ) ) ;
#39 = CARTESIAN_POINT ( 'NONE',  ( 165.0000000000000000, 260.0000000000000000, 169.9999999999999432 ) ) ;
#40 = UNCERTAINTY_MEASURE_WITH_UNIT (LENGTH_MEASURE( 1.000000000000000082E-05 ), #34, 'distance_accuracy_value', 'NONE');
#41 = EDGE_CURVE ( 'NONE', #175, #131, #139, .T. ) ;
#42 = DIRECTION ( 'NONE',  ( -0.000000000000000000, -1.000000000000000000, -0.000000000000000000 ) ) ;
#43 = FACE_OUTER_BOUND ( 'NONE', #104, .T. ) ;
#44 = VECTOR ( 'NONE', #20, 1000.000000000000000 ) ;
#45 = EDGE_CURVE ( 'NONE', #163, #66, #112, .T. ) ;
#46 = EDGE_LOOP ( 'NONE', ( #143, #159, #103, #3 ) ) ;
#47 = ORIENTED_EDGE ( 'NONE', *, *, #148, .F. ) ;
#48 = ORIENTED_EDGE ( 'NONE', *, *, #167, .T. ) ;
#49 = ORIENTED_EDGE ( 'NONE', *, *, #200, .F. ) ;
#50 = ORIENTED_EDGE ( 'NONE', *, *, #146, .F. ) ;
#51 = APPLICATION_PROTOCOL_DEFINITION ( 'draft international standard', 'automotive_design', 1998, #147 ) ;
#52 =( NAMED_UNIT ( * ) SI_UNIT ( $, .STERADIAN. ) SOLID_ANGLE_UNIT ( ) );
#53 = APPLICATION_CONTEXT ( 'automotive_design' ) ;
#54 = PRESENTATION_STYLE_ASSIGNMENT (( #73 ) ) ;
#55 = FACE_OUTER_BOUND ( 'NONE', #102, .T. ) ;
#56 = UNCERTAINTY_MEASURE_WITH_UNIT (LENGTH_MEASURE( 1.000000000000000082E-05 ), #155, 'distance_accuracy_value', 'NONE');
#57 = DIRECTION ( 'NONE',  ( 0.000000000000000000, 0.000000000000000000, 1.000000000000000000 ) ) ;
#58 = DIRECTION ( 'NONE',  ( 0.000000000000000000, 1.000000000000000000, 0.000000000000000000 ) ) ;
#59 = LINE ( 'NONE', #140, #44 ) ;
#60 = PRODUCT_DEFINITION_FORMATION_WITH_SPECIFIED_SOURCE ( 'ANY', '', #105, .NOT_KNOWN. ) ;
#61 = LINE ( 'NONE', #156, #180 ) ;
#62 = CARTESIAN_POINT ( 'NONE',  ( 0.000000000000000000, 260.0000000000000000, 0.000000000000000000 ) ) ;
#63 = PRODUCT_DEFINITION ( 'UNKNOWN', '', #60, #211 ) ;
#64 = VECTOR ( 'NONE', #122, 1000.000000000000000 ) ;
#65 = VECTOR ( 'NONE', #136, 1000.000000000000000 ) ;
#66 = VERTEX_POINT ( 'NONE', #137 ) ;
#67 = ORIENTED_EDGE ( 'NONE', *, *, #148, .T. ) ;
#68 = ORIENTED_EDGE ( 'NONE', *, *, #45, .T. ) ;
#69 = CARTESIAN_POINT ( 'NONE',  ( -165.0000000000000000, 260.0000000000000000, 169.9999999999999716 ) ) ;
#70 = ORIENTED_EDGE ( 'NONE', *, *, #86, .F. ) ;
#71 = DIRECTION ( 'NONE',  ( 0.000000000000000000, 0.000000000000000000, -1.000000000000000000 ) ) ;
#72 = VECTOR ( 'NONE', #195, 1000.000000000000000 ) ;
#73 = SURFACE_STYLE_USAGE ( .BOTH. , #213 ) ;
#74 = CARTESIAN_POINT ( 'NONE',  ( 165.0000000000000000, 260.0000000000000000, -170.0000000000000284 ) ) ;
#75 = CARTESIAN_POINT ( 'NONE',  ( 165.0000000000000000, 0.000000000000000000, 169.9999999999999432 ) ) ;
#76 = CARTESIAN_POINT ( 'NONE',  ( 165.0000000000000000, 0.000000000000000000, -170.0000000000000284 ) ) ;
#77 = UNCERTAINTY_MEASURE_WITH_UNIT (LENGTH_MEASURE( 1.000000000000000082E-05 ), #127, 'distance_accuracy_value', 'NONE');
#78 = DIRECTION ( 'NONE',  ( -1.682156097916903588E-16, 0.000000000000000000, -1.000000000000000000 ) ) ;
#79 = FILL_AREA_STYLE_COLOUR ( '', #133 ) ;
#80 = PLANE ( 'NONE',  #170 ) ;
#81 = SURFACE_STYLE_FILL_AREA ( #141 ) ;
#82 = VERTEX_POINT ( 'NONE', #209 ) ;
#83 = VECTOR ( 'NONE', #171, 1000.000000000000000 ) ;
#84 = EDGE_CURVE ( 'NONE', #175, #134, #210, .T. ) ;
#85 = ORIENTED_EDGE ( 'NONE', *, *, #84, .T. ) ;
#86 = EDGE_CURVE ( 'NONE', #134, #163, #178, .T. ) ;
#87 = DIRECTION ( 'NONE',  ( 0.000000000000000000, -0.000000000000000000, 1.000000000000000000 ) ) ;
#88 = SURFACE_STYLE_FILL_AREA ( #16 ) ;
#89 = VECTOR ( 'NONE', #116, 1000.000000000000000 ) ;
#90 = PLANE ( 'NONE',  #108 ) ;
#91 = FACE_OUTER_BOUND ( 'NONE', #46, .T. ) ;
#92 = ADVANCED_FACE ( 'NONE', ( #55 ), #90, .F. ) ;
#93 =( LENGTH_UNIT ( ) NAMED_UNIT ( * ) SI_UNIT ( .MILLI., .METRE. ) );
#94 = UNCERTAINTY_MEASURE_WITH_UNIT (LENGTH_MEASURE( 1.000000000000000082E-05 ), #93, 'distance_accuracy_value', 'NONE');
#95 = CARTESIAN_POINT ( 'NONE',  ( 165.0000000000000000, 260.0000000000000000, 169.9999999999999432 ) ) ;
#96 = LINE ( 'NONE', #76, #117 ) ;
#97 = CARTESIAN_POINT ( 'NONE',  ( -165.0000000000000000, 0.000000000000000000, -170.0000000000000284 ) ) ;
#98 = AXIS2_PLACEMENT_3D ( 'NONE', #182, #151, #150 ) ;
#99 = VECTOR ( 'NONE', #42, 1000.000000000000000 ) ;
#100 =( GEOMETRIC_REPRESENTATION_CONTEXT ( 3 ) GLOBAL_UNCERTAINTY_ASSIGNED_CONTEXT ( ( #56 ) ) GLOBAL_UNIT_ASSIGNED_CONTEXT ( ( #155, #114, #184 ) ) REPRESENTATION_CONTEXT ( 'NONE', 'WORKASPACE' ) );
#101 = PRESENTATION_STYLE_ASSIGNMENT (( #142 ) ) ;
#102 = EDGE_LOOP ( 'NONE', ( #8, #50, #176, #7 ) ) ;
#103 = ORIENTED_EDGE ( 'NONE', *, *, #11, .F. ) ;
#104 = EDGE_LOOP ( 'NONE', ( #174, #202, #70, #48 ) ) ;
#105 = PRODUCT ( 'P-108-Placeholder 48V 60Ah', 'P-108-Placeholder 48V 60Ah', '', ( #181 ) ) ;
#106 = DIRECTION ( 'NONE',  ( 0.000000000000000000, 1.000000000000000000, 0.000000000000000000 ) ) ;
#107 = CLOSED_SHELL ( 'NONE', ( #12, #216, #212, #92, #168, #1 ) ) ;
#108 = AXIS2_PLACEMENT_3D ( 'NONE', #74, #36, #124 ) ;
#109 = PRESENTATION_STYLE_ASSIGNMENT (( #164 ) ) ;
#110 = CARTESIAN_POINT ( 'NONE',  ( 165.0000000000000000, 260.0000000000000000, 169.9999999999999432 ) ) ;
#111 = VECTOR ( 'NONE', #71, 1000.000000000000000 ) ;
#112 = LINE ( 'NONE', #17, #152 ) ;
#113 =( NAMED_UNIT ( * ) PLANE_ANGLE_UNIT ( ) SI_UNIT ( $, .RADIAN. ) );
#114 =( NAMED_UNIT ( * ) PLANE_ANGLE_UNIT ( ) SI_UNIT ( $, .RADIAN. ) );
#115 = PLANE ( 'NONE',  #207 ) ;
#116 = DIRECTION ( 'NONE',  ( -0.000000000000000000, -1.000000000000000000, -0.000000000000000000 ) ) ;
#117 = VECTOR ( 'NONE', #172, 1000.000000000000000 ) ;
#118 = ORIENTED_EDGE ( 'NONE', *, *, #125, .F. ) ;
#119 = AXIS2_PLACEMENT_3D ( 'NONE', #204, #126, #31 ) ;
#120 = SHAPE_DEFINITION_REPRESENTATION ( #26, #158 ) ;
#121 = CARTESIAN_POINT ( 'NONE',  ( 165.0000000000000000, 0.000000000000000000, 169.9999999999999432 ) ) ;
#122 = DIRECTION ( 'NONE',  ( 1.000000000000000000, -0.000000000000000000, -1.682156097916903834E-16 ) ) ;
#123 = STYLED_ITEM ( 'NONE', ( #101 ), #158 ) ;
#124 = DIRECTION ( 'NONE',  ( 1.000000000000000000, 0.000000000000000000, -0.000000000000000000 ) ) ;
#125 = EDGE_CURVE ( 'NONE', #6, #82, #208, .T. ) ;
#126 = DIRECTION ( 'NONE',  ( 0.000000000000000000, 0.000000000000000000, 1.000000000000000000 ) ) ;
#127 =( LENGTH_UNIT ( ) NAMED_UNIT ( * ) SI_UNIT ( .MILLI., .METRE. ) );
#128 = CARTESIAN_POINT ( 'NONE',  ( 165.0000000000000000, 260.0000000000000000, 169.9999999999999432 ) ) ;
#129 = PLANE ( 'NONE',  #198 ) ;
#130 = ORIENTED_EDGE ( 'NONE', *, *, #41, .T. ) ;
#131 = VERTEX_POINT ( 'NONE', #33 ) ;
#132 = CARTESIAN_POINT ( 'NONE',  ( 0.000000000000000000, 0.000000000000000000, 0.000000000000000000 ) ) ;
#133 = COLOUR_RGB ( '',0.1019607843137254888, 0.1019607843137254888, 0.1019607843137254888 ) ;
#134 = VERTEX_POINT ( 'NONE', #21 ) ;
#135 =( NAMED_UNIT ( * ) SI_UNIT ( $, .STERADIAN. ) SOLID_ANGLE_UNIT ( ) );
#136 = DIRECTION ( 'NONE',  ( 0.000000000000000000, 0.000000000000000000, -1.000000000000000000 ) ) ;
#137 = CARTESIAN_POINT ( 'NONE',  ( -165.0000000000000000, 260.0000000000000000, -170.0000000000000284 ) ) ;
#138 = CARTESIAN_POINT ( 'NONE',  ( 165.0000000000000000, 260.0000000000000000, 169.9999999999999432 ) ) ;
#139 = LINE ( 'NONE', #149, #72 ) ;
#140 = CARTESIAN_POINT ( 'NONE',  ( -165.0000000000000000, 0.000000000000000000, 169.9999999999999716 ) ) ;
#141 = FILL_AREA_STYLE ('',( #79 ) ) ;
#142 = SURFACE_STYLE_USAGE ( .BOTH. , #215 ) ;
#143 = ORIENTED_EDGE ( 'NONE', *, *, #157, .T. ) ;
#144 = PLANE ( 'NONE',  #14 ) ;
#145 = LINE ( 'NONE', #69, #166 ) ;
#146 = EDGE_CURVE ( 'NONE', #66, #203, #199, .T. ) ;
#147 = APPLICATION_CONTEXT ( 'automotive_design' ) ;
#148 = EDGE_CURVE ( 'NONE', #131, #6, #217, .T. ) ;
#149 = CARTESIAN_POINT ( 'NONE',  ( -165.0000000000000000, 260.0000000000000000, 169.9999999999999716 ) ) ;
#150 = DIRECTION ( 'NONE',  ( 0.000000000000000000, 0.000000000000000000, -1.000000000000000000 ) ) ;
#151 = DIRECTION ( 'NONE',  ( 1.000000000000000000, -0.000000000000000000, 0.000000000000000000 ) ) ;
#152 = VECTOR ( 'NONE', #13, 1000.000000000000000 ) ;
#153 = FACE_OUTER_BOUND ( 'NONE', #162, .T. ) ;
#154 = STYLED_ITEM ( 'NONE', ( #54 ), #24 ) ;
#155 =( LENGTH_UNIT ( ) NAMED_UNIT ( * ) SI_UNIT ( .MILLI., .METRE. ) );
#156 = CARTESIAN_POINT ( 'NONE',  ( 165.0000000000000000, 260.0000000000000000, -170.0000000000000284 ) ) ;
#157 = EDGE_CURVE ( 'NONE', #203, #131, #59, .T. ) ;
#158 = ADVANCED_BREP_SHAPE_REPRESENTATION ( 'P-108-Placeholder 48V 60Ah', ( #24, #119 ), #100 ) ;
#159 = ORIENTED_EDGE ( 'NONE', *, *, #41, .F. ) ;
#160 =( GEOMETRIC_REPRESENTATION_CONTEXT ( 3 ) GLOBAL_UNCERTAINTY_ASSIGNED_CONTEXT ( ( #40 ) ) GLOBAL_UNIT_ASSIGNED_CONTEXT ( ( #34, #113, #52 ) ) REPRESENTATION_CONTEXT ( 'NONE', 'WORKASPACE' ) );
#161 = ORIENTED_EDGE ( 'NONE', *, *, #86, .T. ) ;
#162 = EDGE_LOOP ( 'NONE', ( #67, #27, #205, #130 ) ) ;
#163 = VERTEX_POINT ( 'NONE', #22 ) ;
#164 = SURFACE_STYLE_USAGE ( .BOTH. , #192 ) ;
#165 = FILL_AREA_STYLE_COLOUR ( '', #4 ) ;
#166 = VECTOR ( 'NONE', #191, 1000.000000000000000 ) ;
#167 = EDGE_CURVE ( 'NONE', #134, #6, #197, .T. ) ;
#168 = ADVANCED_FACE ( 'NONE', ( #196 ), #115, .T. ) ;
#169 =( NAMED_UNIT ( * ) SI_UNIT ( $, .STERADIAN. ) SOLID_ANGLE_UNIT ( ) );
#170 = AXIS2_PLACEMENT_3D ( 'NONE', #128, #78, #25 ) ;
#171 = DIRECTION ( 'NONE',  ( 1.000000000000000000, -0.000000000000000000, -1.682156097916903834E-16 ) ) ;
#172 = DIRECTION ( 'NONE',  ( -1.000000000000000000, 0.000000000000000000, 0.000000000000000000 ) ) ;
#173 = CARTESIAN_POINT ( 'NONE',  ( -165.0000000000000000, 260.0000000000000000, -170.0000000000000284 ) ) ;
#174 = ORIENTED_EDGE ( 'NONE', *, *, #125, .T. ) ;
#175 = VERTEX_POINT ( 'NONE', #187 ) ;
#176 = ORIENTED_EDGE ( 'NONE', *, *, #45, .F. ) ;
#177 = EDGE_CURVE ( 'NONE', #163, #82, #61, .T. ) ;
#178 = LINE ( 'NONE', #110, #111 ) ;
#179 = STYLED_ITEM ( 'NONE', ( #109 ), #92 ) ;
#180 = VECTOR ( 'NONE', #18, 1000.000000000000000 ) ;
#181 = PRODUCT_CONTEXT ( 'NONE', #53, 'mechanical' ) ;
#182 = CARTESIAN_POINT ( 'NONE',  ( -165.0000000000000000, 260.0000000000000000, 169.9999999999999716 ) ) ;
#183 = PLANE ( 'NONE',  #98 ) ;
#184 =( NAMED_UNIT ( * ) SI_UNIT ( $, .STERADIAN. ) SOLID_ANGLE_UNIT ( ) );
#185 =( GEOMETRIC_REPRESENTATION_CONTEXT ( 3 ) GLOBAL_UNCERTAINTY_ASSIGNED_CONTEXT ( ( #94 ) ) GLOBAL_UNIT_ASSIGNED_CONTEXT ( ( #93, #10, #135 ) ) REPRESENTATION_CONTEXT ( 'NONE', 'WORKASPACE' ) );
#186 = DIRECTION ( 'NONE',  ( 0.000000000000000000, -0.000000000000000000, 1.000000000000000000 ) ) ;
#187 = CARTESIAN_POINT ( 'NONE',  ( -165.0000000000000000, 260.0000000000000000, 169.9999999999999716 ) ) ;
#188 = DIRECTION ( 'NONE',  ( -1.000000000000000000, 0.000000000000000000, 0.000000000000000000 ) ) ;
#189 = ORIENTED_EDGE ( 'NONE', *, *, #11, .T. ) ;
#190 = PRESENTATION_LAYER_ASSIGNMENT (  '', '', ( #154 ) ) ;
#191 = DIRECTION ( 'NONE',  ( -0.000000000000000000, -0.000000000000000000, 1.000000000000000000 ) ) ;
#192 = SURFACE_SIDE_STYLE ('',( #194 ) ) ;
#193 = FILL_AREA_STYLE_COLOUR ( '', #206 ) ;
#194 = SURFACE_STYLE_FILL_AREA ( #32 ) ;
#195 = DIRECTION ( 'NONE',  ( -0.000000000000000000, -1.000000000000000000, -0.000000000000000000 ) ) ;
#196 = FACE_OUTER_BOUND ( 'NONE', #9, .T. ) ;
#197 = LINE ( 'NONE', #95, #99 ) ;
#198 = AXIS2_PLACEMENT_3D ( 'NONE', #39, #188, #57 ) ;
#199 = LINE ( 'NONE', #173, #89 ) ;
#200 = EDGE_CURVE ( 'NONE', #82, #203, #96, .T. ) ;
#201 = MECHANICAL_DESIGN_GEOMETRIC_PRESENTATION_REPRESENTATION (  '', ( #179 ), #15 ) ;
#202 = ORIENTED_EDGE ( 'NONE', *, *, #177, .F. ) ;
#203 = VERTEX_POINT ( 'NONE', #97 ) ;
#204 = CARTESIAN_POINT ( 'NONE',  ( 0.000000000000000000, 0.000000000000000000, 0.000000000000000000 ) ) ;
#205 = ORIENTED_EDGE ( 'NONE', *, *, #84, .F. ) ;
#206 = COLOUR_RGB ( '',0.2000000000000000111, 0.2000000000000000111, 0.2000000000000000111 ) ;
#207 = AXIS2_PLACEMENT_3D ( 'NONE', #62, #58, #186 ) ;
#208 = LINE ( 'NONE', #75, #65 ) ;
#209 = CARTESIAN_POINT ( 'NONE',  ( 165.0000000000000000, 0.000000000000000000, -170.0000000000000284 ) ) ;
#210 = LINE ( 'NONE', #138, #64 ) ;
#211 = PRODUCT_DEFINITION_CONTEXT ( 'detailed design', #147, 'design' ) ;
#212 = ADVANCED_FACE ( 'NONE', ( #43 ), #129, .F. ) ;
#213 = SURFACE_SIDE_STYLE ('',( #88 ) ) ;
#214 = MECHANICAL_DESIGN_GEOMETRIC_PRESENTATION_REPRESENTATION (  '', ( #154 ), #160 ) ;
#215 = SURFACE_SIDE_STYLE ('',( #81 ) ) ;
#216 = ADVANCED_FACE ( 'NONE', ( #153 ), #80, .F. ) ;
#217 = LINE ( 'NONE', #37, #83 ) ;
ENDSEC;
END-ISO-10303-21;
